  0
SECTION
  2
HEADER
  9
$ACADVER
  1
AC1015
  9
$ACADMAINTVER
 70
     6
  9
$DWGCODEPAGE
  3
ANSI_1254
  9
$INSBASE
 10
0.0
 20
0.0
 30
0.0
  9
$EXTMIN
 10
0.0
 20
0.0
 30
0.0
  9
$EXTMAX
 10
279.4
 20
215.9
 30
0.0
  9
$LIMMIN
 10
0.0
 20
0.0
  9
$LIMMAX
 10
279.4
 20
215.9
  9
$ORTHOMODE
 70
     0
  9
$REGENMODE
 70
     1
  9
$FILLMODE
 70
     1
  9
$QTEXTMODE
 70
     0
  9
$MIRRTEXT
 70
     1
  9
$LTSCALE
 40
1.0
  9
$ATTMODE
 70
     1
  9
$TEXTSIZE
 40
3.5
  9
$TRACEWID
 40
1.0
  9
$TEXTSTYLE
  7
Standard
  9
$CLAYER
  8
0
  9
$CELTYPE
  6
ByLayer
  9
$CECOLOR
 62
   256
  9
$CELTSCALE
 40
1.0
  9
$DISPSILH
 70
     0
  9
$DIMSCALE
 40
1.0
  9
$DIMASZ
 40
3.5
  9
$DIMEXO
 40
1.0
  9
$DIMDLI
 40
3.75
  9
$DIMRND
 40
0.0
  9
$DIMDLE
 40
0.0
  9
$DIMEXE
 40
1.0
  9
$DIMTP
 40
0.0
  9
$DIMTM
 40
0.0
  9
$DIMTXT
 40
3.5
  9
$DIMCEN
 40
2.5
  9
$DIMTSZ
 40
0.0
  9
$DIMTOL
 70
     0
  9
$DIMLIM
 70
     0
  9
$DIMTIH
 70
     1
  9
$DIMTOH
 70
     1
  9
$DIMSE1
 70
     0
  9
$DIMSE2
 70
     0
  9
$DIMTAD
 70
     1
  9
$DIMZIN
 70
     0
  9
$DIMBLK
  1

  9
$DIMASO
 70
     1
  9
$DIMSHO
 70
     1
  9
$DIMPOST
  1

  9
$DIMAPOST
  1

  9
$DIMALT
 70
     0
  9
$DIMALTD
 70
     3
  9
$DIMALTF
 40
0.0393700787
  9
$DIMLFAC
 40
1.0
  9
$DIMTOFL
 70
     1
  9
$DIMTVP
 40
0.0
  9
$DIMTIX
 70
     0
  9
$DIMSOXD
 70
     0
  9
$DIMSAH
 70
     0
  9
$DIMBLK1
  1

  9
$DIMBLK2
  1

  9
$DIMSTYLE
  2
ISO-25
  9
$DIMCLRD
 70
     0
  9
$DIMCLRE
 70
     0
  9
$DIMCLRT
 70
     0
  9
$DIMTFAC
 40
1.0
  9
$DIMGAP
 40
1.524
  9
$DIMJUST
 70
     0
  9
$DIMSD1
 70
     0
  9
$DIMSD2
 70
     0
  9
$DIMTOLJ
 70
     0
  9
$DIMTZIN
 70
     0
  9
$DIMALTZ
 70
     0
  9
$DIMALTTZ
 70
     0
  9
$DIMUPT
 70
     0
  9
$DIMDEC
 70
     2
  9
$DIMTDEC
 70
     2
  9
$DIMALTU
 70
     2
  9
$DIMALTTD
 70
     3
  9
$DIMTXSTY
  7
Standard
  9
$DIMAUNIT
 70
     0
  9
$DIMADEC
 70
     2
  9
$DIMALTRND
 40
0.0
  9
$DIMAZIN
 70
     0
  9
$DIMDSEP
 70
    44
  9
$DIMATFIT
 70
     3
  9
$DIMFRAC
 70
     0
  9
$DIMLDRBLK
  1

  9
$DIMLUNIT
 70
     2
  9
$DIMLWD
 70
    -2
  9
$DIMLWE
 70
    -2
  9
$DIMTMOVE
 70
     0
  9
$LUNITS
 70
     2
  9
$LUPREC
 70
     2
  9
$SKETCHINC
 40
1.0
  9
$FILLETRAD
 40
10.0
  9
$AUNITS
 70
     0
  9
$AUPREC
 70
     2
  9
$MENU
  1
.
  9
$ELEVATION
 40
0.0
  9
$PELEVATION
 40
0.0
  9
$THICKNESS
 40
0.0
  9
$LIMCHECK
 70
     0
  9
$CHAMFERA
 40
0.0
  9
$CHAMFERB
 40
0.0
  9
$CHAMFERC
 40
0.0
  9
$CHAMFERD
 40
0.0
  9
$SKPOLY
 70
     0
  9
$TDCREATE
 40
2458985.699262014
  9
$TDUCREATE
 40
2458985.574262014
  9
$TDUPDATE
 40
2458985.699262361
  9
$TDUUPDATE
 40
2458985.574262361
  9
$TDINDWG
 40
0.0000000116
  9
$TDUSRTIMER
 40
0.0000000116
  9
$USRTIMER
 70
     1
  9
$ANGBASE
 50
0.0
  9
$ANGDIR
 70
     0
  9
$PDMODE
 70
     0
  9
$PDSIZE
 40
-1.0
  9
$PLINEWID
 40
0.0
  9
$SPLFRAME
 70
     0
  9
$SPLINETYPE
 70
     6
  9
$SPLINESEGS
 70
     8
  9
$HANDSEED
  5
EF
  9
$SURFTAB1
 70
     6
  9
$SURFTAB2
 70
     6
  9
$SURFTYPE
 70
     6
  9
$SURFU
 70
     6
  9
$SURFV
 70
     6
  9
$UCSBASE
  2

  9
$UCSNAME
  2

  9
$UCSORG
 10
0.0
 20
0.0
 30
0.0
  9
$UCSXDIR
 10
1.0
 20
0.0
 30
0.0
  9
$UCSYDIR
 10
0.0
 20
1.0
 30
0.0
  9
$UCSORTHOREF
  2

  9
$UCSORTHOVIEW
 70
     0
  9
$UCSORGTOP
 10
0.0
 20
0.0
 30
0.0
  9
$UCSORGBOTTOM
 10
0.0
 20
0.0
 30
0.0
  9
$UCSORGLEFT
 10
0.0
 20
0.0
 30
0.0
  9
$UCSORGRIGHT
 10
0.0
 20
0.0
 30
0.0
  9
$UCSORGFRONT
 10
0.0
 20
0.0
 30
0.0
  9
$UCSORGBACK
 10
0.0
 20
0.0
 30
0.0
  9
$PUCSBASE
  2

  9
$PUCSNAME
  2

  9
$PUCSORG
 10
0.0
 20
0.0
 30
0.0
  9
$PUCSXDIR
 10
1.0
 20
0.0
 30
0.0
  9
$PUCSYDIR
 10
0.0
 20
1.0
 30
0.0
  9
$PUCSORTHOREF
  2

  9
$PUCSORTHOVIEW
 70
     0
  9
$PUCSORGTOP
 10
0.0
 20
0.0
 30
0.0
  9
$PUCSORGBOTTOM
 10
0.0
 20
0.0
 30
0.0
  9
$PUCSORGLEFT
 10
0.0
 20
0.0
 30
0.0
  9
$PUCSORGRIGHT
 10
0.0
 20
0.0
 30
0.0
  9
$PUCSORGFRONT
 10
0.0
 20
0.0
 30
0.0
  9
$PUCSORGBACK
 10
0.0
 20
0.0
 30
0.0
  9
$USERI1
 70
     0
  9
$USERI2
 70
     0
  9
$USERI3
 70
     0
  9
$USERI4
 70
     0
  9
$USERI5
 70
     0
  9
$USERR1
 40
0.0
  9
$USERR2
 40
0.0
  9
$USERR3
 40
0.0
  9
$USERR4
 40
0.0
  9
$USERR5
 40
0.0
  9
$WORLDVIEW
 70
     1
  9
$SHADEDGE
 70
     3
  9
$SHADEDIF
 70
    70
  9
$TILEMODE
 70
     1
  9
$MAXACTVP
 70
    64
  9
$PINSBASE
 10
0.0
 20
0.0
 30
0.0
  9
$PLIMCHECK
 70
     0
  9
$PEXTMIN
 10
1.0000000000E+20
 20
1.0000000000E+20
 30
1.0000000000E+20
  9
$PEXTMAX
 10
-1.0000000000E+20
 20
-1.0000000000E+20
 30
-1.0000000000E+20
  9
$PLIMMIN
 10
0.0
 20
0.0
  9
$PLIMMAX
 10
420.0
 20
297.0
  9
$UNITMODE
 70
     0
  9
$VISRETAIN
 70
     1
  9
$PLINEGEN
 70
     0
  9
$PSLTSCALE
 70
     1
  9
$TREEDEPTH
 70
  3020
  9
$CMLSTYLE
  2
Standard
  9
$CMLJUST
 70
     0
  9
$CMLSCALE
 40
20.0
  9
$PROXYGRAPHICS
 70
     1
  9
$MEASUREMENT
 70
     1
  9
$CELWEIGHT
370
    -1
  9
$ENDCAPS
280
     0
  9
$JOINSTYLE
280
     0
  9
$LWDISPLAY
290
     1
  9
$INSUNITS
 70
     4
  9
$HYPERLINKBASE
  1

  9
$STYLESHEET
  1

  9
$XEDIT
290
     1
  9
$CEPSNTYPE
380
     0
  9
$PSTYLEMODE
290
     1
  9
$FINGERPRINTGUID
  2
{ae21e12d-692d-4778-b87b-8ddf4631c718}
  9
$VERSIONGUID
  2
{FAEB1C32-E019-11D5-929B-00C0DF256EC4}
  9
$EXTNAMES
290
     1
  9
$PSVPSCALE
 40
0.0
  9
$OLESTARTUP
290
     0
  0
ENDSEC
  0
SECTION
  2
CLASSES
  0
CLASS
  1
ACDBDICTIONARYWDFLT
  2
AcDbDictionaryWithDefault
  3
ObjectDBX Classes
 90
        0
280
     0
281
     0
  0
CLASS
  1
VISUALSTYLE
  2
AcDbVisualStyle
  3
ObjectDBX Classes
 90
     4095
280
     0
281
     0
  0
CLASS
  1
MATERIAL
  2
AcDbMaterial
  3
ObjectDBX Classes
 90
     1153
280
     0
281
     0
  0
CLASS
  1
SCALE
  2
AcDbScale
  3
ObjectDBX Classes
 90
     1153
280
     0
281
     0
  0
CLASS
  1
TABLESTYLE
  2
AcDbTableStyle
  3
ObjectDBX Classes
 90
     4095
280
     0
281
     0
  0
CLASS
  1
MLEADERSTYLE
  2
AcDbMLeaderStyle
  3
ACDB_MLEADERSTYLE_CLASS
 90
     4095
280
     0
281
     0
  0
CLASS
  1
SUN
  2
AcDbSun
  3
SCENEOE
 90
     1153
280
     0
281
     0
  0
CLASS
  1
ACDBPLACEHOLDER
  2
AcDbPlaceHolder
  3
ObjectDBX Classes
 90
        0
280
     0
281
     0
  0
CLASS
  1
LAYOUT
  2
AcDbLayout
  3
ObjectDBX Classes
 90
        0
280
     0
281
     0
  0
ENDSEC
  0
SECTION
  2
TABLES
  0
TABLE
  2
VPORT
  5
8
330
0
100
AcDbSymbolTable
 70
     1
  0
VPORT
  5
29
330
8
100
AcDbSymbolTableRecord
100
AcDbViewportTableRecord
  2
*Active
 70
     0
 10
0.0
 20
0.0
 11
1.0
 21
1.0
 12
139.7
 22
107.95
 13
0.0
 23
0.0
 14
10.0
 24
10.0
 15
10.0
 25
10.0
 16
0.0
 26
0.0
 36
1.0
 17
0.0
 27
0.0
 37
0.0
 40
215.9
 41
1.2941176471
 42
50.0
 43
0.0
 44
0.0
 50
0.0
 51
0.0
 71
     0
 72
  2000
 73
     1
 74
     3
 75
     0
 76
     0
 77
     0
 78
     0
281
     0
 65
     1
110
0.0
120
0.0
130
0.0
111
1.0
121
0.0
131
0.0
112
0.0
122
1.0
132
0.0
 79
     0
146
0.0
  0
ENDTAB
  0
TABLE
  2
LTYPE
  5
5
330
0
100
AcDbSymbolTable
 70
     6
  0
LTYPE
  5
14
330
5
100
AcDbSymbolTableRecord
100
AcDbLinetypeTableRecord
  2
ByBlock
 70
     0
  3

 72
    65
 73
     0
 40
0.0
  0
LTYPE
  5
15
330
5
100
AcDbSymbolTableRecord
100
AcDbLinetypeTableRecord
  2
ByLayer
 70
     0
  3

 72
    65
 73
     0
 40
0.0
  0
LTYPE
  5
16
330
5
100
AcDbSymbolTableRecord
100
AcDbLinetypeTableRecord
  2
Continuous
 70
     0
  3
Solid line
 72
    65
 73
     0
 40
0.0
  0
LTYPE
  5
6E
330
5
100
AcDbSymbolTableRecord
100
AcDbLinetypeTableRecord
  2
HIDDEN
 70
     0
  3
Hidden __ __ __ __ __ __ __ __ __ __ __ __ __ __
 72
    65
 73
     2
 40
1.905
 49
1.27
 74
     0
 49
-0.635
 74
     0
  0
LTYPE
  5
6F
330
5
100
AcDbSymbolTableRecord
100
AcDbLinetypeTableRecord
  2
PHANTOM
 70
     0
  3
Phantom ______  __  __  ______  __  __  ______
 72
    65
 73
     6
 40
12.7
 49
6.35
 74
     0
 49
-1.27
 74
     0
 49
1.27
 74
     0
 49
-1.27
 74
     0
 49
1.27
 74
     0
 49
-1.27
 74
     0
  0
LTYPE
  5
70
330
5
100
AcDbSymbolTableRecord
100
AcDbLinetypeTableRecord
  2
CENTER
 70
     0
  3
Center ____ _ ____ _ ____ _ ____ _ ____ _ ____
 72
    65
 73
     4
 40
10.16
 49
6.35
 74
     0
 49
-1.27
 74
     0
 49
1.27
 74
     0
 49
-1.27
 74
     0
  0
LTYPE
  5
71
330
5
100
AcDbSymbolTableRecord
100
AcDbLinetypeTableRecord
  2
CENTERX2
 70
     0
  3
Center (2x) ________  __  ________  __  _____
 72
    65
 73
     4
 40
20.32
 49
12.7
 74
     0
 49
-2.54
 74
     0
 49
2.54
 74
     0
 49
-2.54
 74
     0
  0
LTYPE
  5
72
330
5
100
AcDbSymbolTableRecord
100
AcDbLinetypeTableRecord
  2
DOT2
 70
     0
  3
Dot (.5x) ........................................
 72
    65
 73
     2
 40
0.635
 49
0.0
 74
     0
 49
-0.635
 74
     0
  0
ENDTAB
  0
TABLE
  2
LAYER
  5
2
330
0
100
AcDbSymbolTable
 70
    17
  0
LAYER
  5
10
330
2
100
AcDbSymbolTableRecord
100
AcDbLayerTableRecord
  2
0
 70
     0
 62
     7
  6
Continuous
370
    -3
390
F
  0
LAYER
  5
73
330
2
100
AcDbSymbolTableRecord
100
AcDbLayerTableRecord
  2
FORMAT
 70
     0
 62
     7
  6
Continuous
370
    -3
390
F
  0
LAYER
  5
74
330
2
100
AcDbSymbolTableRecord
100
AcDbLayerTableRecord
  2
YARDIMCI_GEOMETRI
 70
     0
 62
    -6
  6
Continuous
290
     0
370
    -3
390
F
  0
LAYER
  5
75
330
2
100
AcDbSymbolTableRecord
100
AcDbLayerTableRecord
  2
SAYFA_CERCEVESI
 70
     0
 62
     7
  6
Continuous
370
    25
390
F
  0
LAYER
  5
76
330
2
100
AcDbSymbolTableRecord
100
AcDbLayerTableRecord
  2
ANTET
 70
     0
 62
     7
  6
Continuous
370
    -3
390
F
  0
LAYER
  5
77
330
2
100
AcDbSymbolTableRecord
100
AcDbLayerTableRecord
  2
OLCU
 70
     0
 62
   150
  6
Continuous
370
    -3
390
F
  0
LAYER
  5
78
330
2
100
AcDbSymbolTableRecord
100
AcDbLayerTableRecord
  2
METIN
 70
     0
 62
    96
  6
Continuous
370
    -3
390
F
  0
LAYER
  5
79
330
2
100
AcDbSymbolTableRecord
100
AcDbLayerTableRecord
  2
BALON
 70
     0
 62
     5
  6
Continuous
370
    -3
390
F
  0
LAYER
  5
7A
330
2
100
AcDbSymbolTableRecord
100
AcDbLayerTableRecord
  2
VURGU
 70
     0
 62
     7
  6
Continuous
370
    -3
390
F
  0
LAYER
  5
7B
330
2
100
AcDbSymbolTableRecord
100
AcDbLayerTableRecord
  2
SILIK
 70
     0
 62
     7
  6
Continuous
370
    -3
390
F
  0
LAYER
  5
7C
330
2
100
AcDbSymbolTableRecord
100
AcDbLayerTableRecord
  2
MODEL
 70
     0
 62
     7
  6
Continuous
370
    -3
390
F
  0
LAYER
  5
7D
330
2
100
AcDbSymbolTableRecord
100
AcDbLayerTableRecord
  2
DETAYLANDıRMA
 70
     0
 62
   190
  6
Continuous
370
    -3
390
F
  0
LAYER
  5
7E
330
2
100
AcDbSymbolTableRecord
100
AcDbLayerTableRecord
  2
TOLERANS
 70
     0
 62
   230
  6
Continuous
370
    -3
390
F
  0
LAYER
  5
7F
330
2
100
AcDbSymbolTableRecord
100
AcDbLayerTableRecord
  2
MERKEZ_CIZGILERI
 70
     0
 62
    30
  6
Continuous
370
    -3
390
F
  0
LAYER
  5
80
330
2
100
AcDbSymbolTableRecord
100
AcDbLayerTableRecord
  2
KESIT-DETAY_CIZGILERI
 70
     0
 62
     7
  6
Continuous
370
    -3
390
F
  0
LAYER
  5
81
330
2
100
AcDbSymbolTableRecord
100
AcDbLayerTableRecord
  2
\U+041E\U+0421\U+0415\U+0412\U+042B\U+0415
 70
     0
 62
     7
  6
Continuous
370
    -3
390
F
  0
LAYER
  5
82
330
2
100
AcDbSymbolTableRecord
100
AcDbLayerTableRecord
  2
\U+0412\U+041E\U+0414\U+042F\U+041D\U+042B\U+0415_\U+0417\U+041D\U+0410\U+041A\U+0418
 70
     0
 62
    11
  6
Continuous
370
    -3
390
F
  0
ENDTAB
  0
TABLE
  2
STYLE
  5
3
330
0
100
AcDbSymbolTable
 70
     1
  0
STYLE
  5
11
330
3
100
AcDbSymbolTableRecord
100
AcDbTextStyleTableRecord
  2
Standard
 70
     0
 40
0.0
 41
1.0
 50
0.0
 71
     0
 42
3.5
  3
txt
  4

  0
ENDTAB
  0
TABLE
  2
VIEW
  5
6
330
0
100
AcDbSymbolTable
 70
     0
  0
ENDTAB
  0
TABLE
  2
UCS
  5
7
330
0
100
AcDbSymbolTable
 70
     0
  0
ENDTAB
  0
TABLE
  2
APPID
  5
9
330
0
100
AcDbSymbolTable
 70
     1
  0
APPID
  5
12
330
9
100
AcDbSymbolTableRecord
100
AcDbRegAppTableRecord
  2
ACAD
 70
     0
  0
ENDTAB
  0
TABLE
  2
DIMSTYLE
  5
A
330
0
100
AcDbSymbolTable
 70
     1
100
AcDbDimStyleTable
  0
DIMSTYLE
105
27
330
A
100
AcDbSymbolTableRecord
100
AcDbDimStyleTableRecord
  2
ISO-25
 70
     0
 41
2.5
 42
0.625
 43
3.75
 44
1.25
 73
     0
 74
     0
 77
     1
 78
     8
140
2.5
141
2.5
143
0.0393700787
147
0.625
171
     3
172
     1
178
     0
271
     2
272
     2
274
     3
278
    44
283
     0
284
     8
340
11
  0
ENDTAB
  0
TABLE
  2
BLOCK_RECORD
  5
1
330
0
100
AcDbSymbolTable
 70
     2
  0
BLOCK_RECORD
  5
1F
330
1
100
AcDbSymbolTableRecord
100
AcDbBlockTableRecord
  2
*Model_Space
340
22
  0
BLOCK_RECORD
  5
1B
330
1
100
AcDbSymbolTableRecord
100
AcDbBlockTableRecord
  2
*Paper_Space
340
1E
  0
BLOCK_RECORD
  5
23
330
1
100
AcDbSymbolTableRecord
100
AcDbBlockTableRecord
  2
*Paper_Space0
340
26
  0
BLOCK_RECORD
  5
88
330
1
100
AcDbSymbolTableRecord
100
AcDbBlockTableRecord
  2
SW_CENTERMARKSYMBOL_0
340
0
102
{BLKREFS
331
93
102
}
  0
ENDTAB
  0
ENDSEC
  0
SECTION
  2
BLOCKS
  0
BLOCK
  5
20
330
1F
100
AcDbEntity
  8
0
100
AcDbBlockBegin
  2
*Model_Space
 70
     0
 10
0.0
 20
0.0
 30
0.0
  3
*Model_Space
  1

  0
ENDBLK
  5
21
330
1F
100
AcDbEntity
  8
0
100
AcDbBlockEnd
  0
BLOCK
  5
1C
330
1B
100
AcDbEntity
 67
     1
  8
0
100
AcDbBlockBegin
  2
*Paper_Space
 70
     0
 10
0.0
 20
0.0
 30
0.0
  3
*Paper_Space
  1

  0
ENDBLK
  5
1D
330
1B
100
AcDbEntity
 67
     1
  8
0
100
AcDbBlockEnd
  0
BLOCK
  5
24
330
23
100
AcDbEntity
  8
0
100
AcDbBlockBegin
  2
*Paper_Space0
 70
     0
 10
0.0
 20
0.0
 30
0.0
  3
*Paper_Space0
  1

  0
ENDBLK
  5
25
330
23
100
AcDbEntity
  8
0
100
AcDbBlockEnd
  0
BLOCK
  5
89
330
88
100
AcDbEntity
  8
0
100
AcDbBlockBegin
  2
SW_CENTERMARKSYMBOL_0
 70
     0
 10
0.0
 20
0.0
 30
0.0
  3
SW_CENTERMARKSYMBOL_0
  1

  0
LINE
  5
8B
330
88
100
AcDbEntity
  8
FORMAT
 62
     0
100
AcDbLine
 10
0.0
 20
0.0
 30
0.0
 11
0.0
 21
2.5
 31
0.0
  0
LINE
  5
8C
330
88
100
AcDbEntity
  8
FORMAT
 62
     0
100
AcDbLine
 10
0.0
 20
0.0
 30
0.0
 11
-2.5
 21
0.0
 31
0.0
  0
LINE
  5
8D
330
88
100
AcDbEntity
  8
FORMAT
 62
     0
100
AcDbLine
 10
0.0
 20
0.0
 30
0.0
 11
0.0
 21
-2.5
 31
0.0
  0
LINE
  5
8E
330
88
100
AcDbEntity
  8
FORMAT
 62
     0
100
AcDbLine
 10
0.0
 20
0.0
 30
0.0
 11
2.5
 21
0.0
 31
0.0
  0
LINE
  5
8F
330
88
100
AcDbEntity
  8
FORMAT
 62
     0
100
AcDbLine
 10
0.0
 20
5.0
 30
0.0
 11
0.0
 21
82.5
 31
0.0
  0
LINE
  5
90
330
88
100
AcDbEntity
  8
FORMAT
 62
     0
100
AcDbLine
 10
-5.0
 20
0.0
 30
0.0
 11
-82.5
 21
0.0
 31
0.0
  0
LINE
  5
91
330
88
100
AcDbEntity
  8
FORMAT
 62
     0
100
AcDbLine
 10
0.0
 20
-5.0
 30
0.0
 11
0.0
 21
-82.5
 31
0.0
  0
LINE
  5
92
330
88
100
AcDbEntity
  8
FORMAT
 62
     0
100
AcDbLine
 10
5.0
 20
0.0
 30
0.0
 11
82.5
 21
0.0
 31
0.0
  0
ENDBLK
  5
8A
330
88
100
AcDbEntity
  8
0
100
AcDbBlockEnd
  0
ENDSEC
  0
SECTION
  2
ENTITIES
  0
CIRCLE
  5
83
330
1F
100
AcDbEntity
  8
0
  6
Continuous
 62
     7
370
    25
100
AcDbCircle
 10
139.395004093
 20
107.5851680021
 30
0.0
 40
80.00000000000001
  0
CIRCLE
  5
84
330
1F
100
AcDbEntity
  8
0
  6
Continuous
 62
     7
370
    25
100
AcDbCircle
 10
139.395004093
 20
107.5851680021
 30
0.0
 40
65.40000000000002
  0
CIRCLE
  5
85
330
1F
100
AcDbEntity
  8
0
  6
Continuous
 62
     7
370
    25
100
AcDbCircle
 10
139.395004093
 20
107.5851680021
 30
0.0
 40
65.1087095579742
  0
CIRCLE
  5
86
330
1F
100
AcDbEntity
  8
0
  6
Continuous
 62
     7
370
    25
100
AcDbCircle
 10
139.395004093
 20
107.5851680021
 30
0.0
 40
45.29129044202583
  0
CIRCLE
  5
87
330
1F
100
AcDbEntity
  8
0
  6
Continuous
 62
     7
370
    25
100
AcDbCircle
 10
139.395004093
 20
107.5851680021
 30
0.0
 40
45.00000000000001
  0
INSERT
  5
93
330
1F
100
AcDbEntity
  8
FORMAT
 62
     7
100
AcDbBlockReference
  2
SW_CENTERMARKSYMBOL_0
 10
139.395004093
 20
107.5851680021
 30
0.0
  0
ARC
  5
94
330
1F
100
AcDbEntity
  8
0
  6
Continuous
 62
     7
370
    25
100
AcDbCircle
 10
-145.279950292
 20
185.5851680021
 30
0.0
 40
2.000000000000028
100
AcDbArc
 50
70.3461759419
 51
90.0
  0
ARC
  5
95
330
1F
100
AcDbEntity
  8
0
  6
Continuous
 62
     7
370
    25
100
AcDbCircle
 10
-145.279950292
 20
29.5851680021
 30
0.0
 40
2.000000000000018
100
AcDbArc
 50
270.0
 51
289.6538240581
  0
LINE
  5
96
330
1F
100
AcDbEntity
  8
0
  6
Continuous
 62
     7
370
    25
100
AcDbLine
 10
-145.2799501169
 20
187.585166214
 30
0.0
 11
-242.9335253584
 21
187.585166214
 31
0.0
  0
LINE
  5
97
330
1F
100
AcDbEntity
  8
0
  6
Continuous
 62
     7
370
    25
100
AcDbLine
 10
-242.9335253584
 20
27.5851697903
 30
0.0
 11
-145.2799501169
 21
27.5851697903
 31
0.0
  0
LINE
  5
98
330
1F
100
AcDbEntity
  8
0
  6
Continuous
 62
     7
370
    25
100
AcDbLine
 10
-144.607278173
 20
27.7016819696
 30
0.0
 11
-75.2597699213
 21
52.4686523955
 31
0.0
  0
LINE
  5
99
330
1F
100
AcDbEntity
  8
0
  6
Continuous
 62
     7
370
    25
100
AcDbLine
 10
-75.2597699213
 20
162.7016836088
 30
0.0
 11
-144.607278173
 21
187.4686540346
 31
0.0
  0
ARC
  5
9A
330
1F
100
AcDbEntity
  8
0
  6
Continuous
 62
     7
370
    25
100
AcDbCircle
 10
-74.5870952941
 20
164.5851680021
 30
0.0
 40
2.000000000000028
100
AcDbArc
 50
250.3461759419
 51
270.0
  0
ARC
  5
9B
330
1F
100
AcDbEntity
  8
0
  6
Continuous
 62
     7
370
    25
100
AcDbCircle
 10
-74.5870952941
 20
50.5851680021
 30
0.0
 40
2.000000000000008
100
AcDbArc
 50
90.0
 51
109.6538240581
  0
LINE
  5
9C
330
1F
100
AcDbEntity
  8
0
  6
Continuous
 62
     7
370
    25
100
AcDbLine
 10
7.0664746416
 20
162.5851677041
 30
0.0
 11
-74.5870942521
 21
162.5851677041
 31
0.0
  0
LINE
  5
9D
330
1F
100
AcDbEntity
  8
0
  6
Continuous
 62
     7
370
    25
100
AcDbLine
 10
-74.5870942521
 20
52.5851683001
 30
0.0
 11
7.0664746416
 21
52.5851683001
 31
0.0
  0
LINE
  5
9E
330
1F
100
AcDbEntity
  8
0
  6
Continuous
 62
     7
370
    25
100
AcDbLine
 10
-242.9335253584
 20
187.585166214
 30
0.0
 11
-242.9335253584
 21
27.5851697903
 31
0.0
  0
LINE
  5
9F
330
1F
100
AcDbEntity
  8
0
  6
Continuous
 62
     7
370
    25
100
AcDbLine
 10
7.0664746416
 20
162.5851677041
 30
0.0
 11
7.0664746416
 21
52.5851683001
 31
0.0
  0
LINE
  5
A0
330
1F
100
AcDbEntity
  8
0
  6
Continuous
 62
     1
370
    25
100
AcDbLine
 10
-144.607278173
 20
187.4686540346
 30
0.0
 11
-144.607278173
 21
27.7016819696
 31
0.0
  0
LINE
  5
A1
330
1F
100
AcDbEntity
  8
0
  6
Continuous
 62
     1
370
    25
100
AcDbLine
 10
-145.2799501169
 20
187.585166214
 30
0.0
 11
-145.2799501169
 21
27.5851697903
 31
0.0
  0
LINE
  5
A2
330
1F
100
AcDbEntity
  8
0
  6
Continuous
 62
     1
370
    25
100
AcDbLine
 10
-75.2597699213
 20
162.7016836088
 30
0.0
 11
-75.2597699213
 21
52.4686523955
 31
0.0
  0
LINE
  5
A3
330
1F
100
AcDbEntity
  8
0
  6
Continuous
 62
     1
370
    25
100
AcDbLine
 10
-74.5870942521
 20
162.5851677041
 30
0.0
 11
-74.5870942521
 21
52.5851683001
 31
0.0
  0
ARC
  5
A4
330
1F
100
AcDbEntity
  8
0
  6
Continuous
 62
     7
370
    25
100
AcDbCircle
 10
421.0468854391
 20
29.5851680021
 30
0.0
 40
2.000000000000028
100
AcDbArc
 50
250.3461759419
 51
270.0
  0
ARC
  5
A5
330
1F
100
AcDbEntity
  8
0
  6
Continuous
 62
     7
370
    25
100
AcDbCircle
 10
421.0468854391
 20
185.5851680021
 30
0.0
 40
2.000000000000028
100
AcDbArc
 50
90.0
 51
109.6538240581
  0
LINE
  5
A6
330
1F
100
AcDbEntity
  8
0
  6
Continuous
 62
     7
370
    25
100
AcDbLine
 10
421.046885264
 20
27.5851697903
 30
0.0
 11
518.7004605056
 21
27.5851697903
 31
0.0
  0
LINE
  5
A7
330
1F
100
AcDbEntity
  8
0
  6
Continuous
 62
     7
370
    25
100
AcDbLine
 10
518.7004605056
 20
187.585166214
 30
0.0
 11
421.046885264
 21
187.585166214
 31
0.0
  0
LINE
  5
A8
330
1F
100
AcDbEntity
  8
0
  6
Continuous
 62
     7
370
    25
100
AcDbLine
 10
420.3742133201
 20
187.4686540346
 30
0.0
 11
351.0267050684
 21
162.7016836088
 31
0.0
  0
LINE
  5
A9
330
1F
100
AcDbEntity
  8
0
  6
Continuous
 62
     7
370
    25
100
AcDbLine
 10
351.0267050684
 20
52.4686523955
 30
0.0
 11
420.3742133201
 21
27.7016819696
 31
0.0
  0
ARC
  5
AA
330
1F
100
AcDbEntity
  8
0
  6
Continuous
 62
     7
370
    25
100
AcDbCircle
 10
350.3540304413
 20
50.5851680021
 30
0.0
 40
2.000000000000007
100
AcDbArc
 50
70.3461759419
 51
90.0
  0
ARC
  5
AB
330
1F
100
AcDbEntity
  8
0
  6
Continuous
 62
     7
370
    25
100
AcDbCircle
 10
350.3540304413
 20
164.5851680021
 30
0.0
 40
2.000000000000028
100
AcDbArc
 50
270.0
 51
289.6538240581
  0
LINE
  5
AC
330
1F
100
AcDbEntity
  8
0
  6
Continuous
 62
     7
370
    25
100
AcDbLine
 10
268.7004605056
 20
52.5851683001
 30
0.0
 11
350.3540293993
 21
52.5851683001
 31
0.0
  0
LINE
  5
AD
330
1F
100
AcDbEntity
  8
0
  6
Continuous
 62
     7
370
    25
100
AcDbLine
 10
350.3540293993
 20
162.5851677041
 30
0.0
 11
268.7004605056
 21
162.5851677041
 31
0.0
  0
LINE
  5
AE
330
1F
100
AcDbEntity
  8
0
  6
Continuous
 62
     7
370
    25
100
AcDbLine
 10
518.7004605056
 20
107.5851680021
 30
0.0
 11
518.7004605056
 21
187.585166214
 31
0.0
  0
LINE
  5
AF
330
1F
100
AcDbEntity
  8
0
  6
Continuous
 62
     7
370
    25
100
AcDbLine
 10
518.7004605056
 20
27.5851697903
 30
0.0
 11
518.7004605056
 21
107.5851680021
 31
0.0
  0
LINE
  5
B0
330
1F
100
AcDbEntity
  8
0
  6
Continuous
 62
     7
370
    25
100
AcDbLine
 10
268.7004605056
 20
107.5851680021
 30
0.0
 11
268.7004605056
 21
162.5851677041
 31
0.0
  0
LINE
  5
B1
330
1F
100
AcDbEntity
  8
0
  6
Continuous
 62
     7
370
    25
100
AcDbLine
 10
268.7004605056
 20
52.5851683001
 30
0.0
 11
268.7004605056
 21
107.5851680021
 31
0.0
  0
LINE
  5
B2
330
1F
100
AcDbEntity
  8
0
  6
Continuous
 62
     1
370
    25
100
AcDbLine
 10
420.3742133201
 20
107.5851680021
 30
0.0
 11
420.3742133201
 21
187.4686540346
 31
0.0
  0
LINE
  5
B3
330
1F
100
AcDbEntity
  8
0
  6
Continuous
 62
     1
370
    25
100
AcDbLine
 10
420.3742133201
 20
27.7016819696
 30
0.0
 11
420.3742133201
 21
107.5851680021
 31
0.0
  0
LINE
  5
B4
330
1F
100
AcDbEntity
  8
0
  6
Continuous
 62
     1
370
    25
100
AcDbLine
 10
421.046885264
 20
107.5851680021
 30
0.0
 11
421.046885264
 21
187.585166214
 31
0.0
  0
LINE
  5
B5
330
1F
100
AcDbEntity
  8
0
  6
Continuous
 62
     1
370
    25
100
AcDbLine
 10
421.046885264
 20
27.5851697903
 30
0.0
 11
421.046885264
 21
107.5851680021
 31
0.0
  0
LINE
  5
B6
330
1F
100
AcDbEntity
  8
0
  6
Continuous
 62
     1
370
    25
100
AcDbLine
 10
351.0267050684
 20
107.5851680021
 30
0.0
 11
351.0267050684
 21
162.7016836088
 31
0.0
  0
LINE
  5
B7
330
1F
100
AcDbEntity
  8
0
  6
Continuous
 62
     1
370
    25
100
AcDbLine
 10
351.0267050684
 20
52.4686523955
 30
0.0
 11
351.0267050684
 21
107.5851680021
 31
0.0
  0
LINE
  5
B8
330
1F
100
AcDbEntity
  8
0
  6
Continuous
 62
     1
370
    25
100
AcDbLine
 10
350.3540293993
 20
107.5851680021
 30
0.0
 11
350.3540293993
 21
162.5851677041
 31
0.0
  0
LINE
  5
B9
330
1F
100
AcDbEntity
  8
0
  6
Continuous
 62
     1
370
    25
100
AcDbLine
 10
350.3540293993
 20
52.5851683001
 30
0.0
 11
350.3540293993
 21
107.5851680021
 31
0.0
  0
ARC
  5
BA
330
1F
100
AcDbEntity
  8
0
  6
Continuous
 62
     7
370
    25
100
AcDbCircle
 10
217.395004093
 20
359.346764432
 30
0.0
 40
2.000000000000058
100
AcDbArc
 50
340.3461759419
 51
360.0
  0
ARC
  5
BB
330
1F
100
AcDbEntity
  8
0
  6
Continuous
 62
     7
370
    25
100
AcDbCircle
 10
61.395004093
 20
359.346764432
 30
0.0
 40
2.000000000000031
100
AcDbArc
 50
180.0
 51
199.6538240581
  0
LINE
  5
BC
330
1F
100
AcDbEntity
  8
0
  6
Continuous
 62
     7
370
    25
100
AcDbLine
 10
219.3950023049
 20
359.3467642569
 30
0.0
 11
219.3950023049
 21
457.0003394985
 31
0.0
  0
LINE
  5
BD
330
1F
100
AcDbEntity
  8
0
  6
Continuous
 62
     7
370
    25
100
AcDbLine
 10
59.3950058812
 20
457.0003394985
 30
0.0
 11
59.3950058812
 21
359.3467642569
 31
0.0
  0
LINE
  5
BE
330
1F
100
AcDbEntity
  8
0
  6
Continuous
 62
     7
370
    25
100
AcDbLine
 10
59.5115180606
 20
358.674092313
 30
0.0
 11
84.2784884864
 21
289.3265840614
 31
0.0
  0
LINE
  5
BF
330
1F
100
AcDbEntity
  8
0
  6
Continuous
 62
     7
370
    25
100
AcDbLine
 10
194.5115196997
 20
289.3265840614
 30
0.0
 11
219.2784901255
 21
358.674092313
 31
0.0
  0
ARC
  5
C0
330
1F
100
AcDbEntity
  8
0
  6
Continuous
 62
     7
370
    25
100
AcDbCircle
 10
196.395004093
 20
288.6539094342
 30
0.0
 40
2.000000000000012
100
AcDbArc
 50
160.3461759419
 51
180.0
  0
ARC
  5
C1
330
1F
100
AcDbEntity
  8
0
  6
Continuous
 62
     7
370
    25
100
AcDbCircle
 10
82.395004093
 20
288.6539094342
 30
0.0
 40
2.000000000000014
100
AcDbArc
 50
0.0
 51
19.6538240581
  0
LINE
  5
C2
330
1F
100
AcDbEntity
  8
0
  6
Continuous
 62
     7
370
    25
100
AcDbLine
 10
194.395003795
 20
207.0003394985
 30
0.0
 11
194.395003795
 21
288.6539083922
 31
0.0
  0
LINE
  5
C3
330
1F
100
AcDbEntity
  8
0
  6
Continuous
 62
     7
370
    25
100
AcDbLine
 10
84.3950043911
 20
288.6539083922
 30
0.0
 11
84.3950043911
 21
207.0003394985
 31
0.0
  0
LINE
  5
C4
330
1F
100
AcDbEntity
  8
0
  6
Continuous
 62
     7
370
    25
100
AcDbLine
 10
219.3950023049
 20
457.0003394985
 30
0.0
 11
59.3950058812
 21
457.0003394985
 31
0.0
  0
LINE
  5
C5
330
1F
100
AcDbEntity
  8
0
  6
Continuous
 62
     7
370
    25
100
AcDbLine
 10
194.395003795
 20
207.0003394985
 30
0.0
 11
84.3950043911
 21
207.0003394985
 31
0.0
  0
LINE
  5
C6
330
1F
100
AcDbEntity
  8
0
  6
Continuous
 62
     1
370
    25
100
AcDbLine
 10
219.2784901255
 20
358.674092313
 30
0.0
 11
59.5115180606
 21
358.674092313
 31
0.0
  0
LINE
  5
C7
330
1F
100
AcDbEntity
  8
0
  6
Continuous
 62
     1
370
    25
100
AcDbLine
 10
219.3950023049
 20
359.3467642569
 30
0.0
 11
59.3950058812
 21
359.3467642569
 31
0.0
  0
LINE
  5
C8
330
1F
100
AcDbEntity
  8
0
  6
Continuous
 62
     1
370
    25
100
AcDbLine
 10
194.5115196997
 20
289.3265840614
 30
0.0
 11
84.2784884864
 21
289.3265840614
 31
0.0
  0
LINE
  5
C9
330
1F
100
AcDbEntity
  8
0
  6
Continuous
 62
     1
370
    25
100
AcDbLine
 10
194.395003795
 20
288.6539083922
 30
0.0
 11
84.3950043911
 21
288.6539083922
 31
0.0
  0
ARC
  5
CA
330
1F
100
AcDbEntity
  8
0
  6
Continuous
 62
     7
370
    25
100
AcDbCircle
 10
61.395004093
 20
-145.198707688
 30
0.0
 40
2.000000000000021
100
AcDbArc
 50
160.3461759419
 51
180.0
  0
ARC
  5
CB
330
1F
100
AcDbEntity
  8
0
  6
Continuous
 62
     7
370
    25
100
AcDbCircle
 10
217.395004093
 20
-145.198707688
 30
0.0
 40
2.000000000000048
100
AcDbArc
 50
0.0
 51
19.6538240581
  0
LINE
  5
CC
330
1F
100
AcDbEntity
  8
0
  6
Continuous
 62
     7
370
    25
100
AcDbLine
 10
59.3950058812
 20
-145.1987075129
 30
0.0
 11
59.3950058812
 21
-242.8522827544
 31
0.0
  0
LINE
  5
CD
330
1F
100
AcDbEntity
  8
0
  6
Continuous
 62
     7
370
    25
100
AcDbLine
 10
219.3950023049
 20
-242.8522827544
 30
0.0
 11
219.3950023049
 21
-145.1987075129
 31
0.0
  0
LINE
  5
CE
330
1F
100
AcDbEntity
  8
0
  6
Continuous
 62
     7
370
    25
100
AcDbLine
 10
219.2784901255
 20
-144.526035569
 30
0.0
 11
194.5115196997
 21
-75.1785273173
 31
0.0
  0
LINE
  5
CF
330
1F
100
AcDbEntity
  8
0
  6
Continuous
 62
     7
370
    25
100
AcDbLine
 10
84.2784884864
 20
-75.1785273173
 30
0.0
 11
59.5115180606
 21
-144.526035569
 31
0.0
  0
ARC
  5
D0
330
1F
100
AcDbEntity
  8
0
  6
Continuous
 62
     7
370
    25
100
AcDbCircle
 10
82.395004093
 20
-74.5058526901
 30
0.0
 40
2.000000000000021
100
AcDbArc
 50
340.3461759419
 51
0.0
  0
ARC
  5
D1
330
1F
100
AcDbEntity
  8
0
  6
Continuous
 62
     7
370
    25
100
AcDbCircle
 10
196.395004093
 20
-74.5058526901
 30
0.0
 40
2.000000000000021
100
AcDbArc
 50
180.0
 51
199.6538240581
  0
LINE
  5
D2
330
1F
100
AcDbEntity
  8
0
  6
Continuous
 62
     7
370
    25
100
AcDbLine
 10
84.3950043911
 20
7.1477172456
 30
0.0
 11
84.3950043911
 21
-74.5058516481
 31
0.0
  0
LINE
  5
D3
330
1F
100
AcDbEntity
  8
0
  6
Continuous
 62
     7
370
    25
100
AcDbLine
 10
194.395003795
 20
-74.5058516481
 30
0.0
 11
194.395003795
 21
7.1477172456
 31
0.0
  0
LINE
  5
D4
330
1F
100
AcDbEntity
  8
0
  6
Continuous
 62
     7
370
    25
100
AcDbLine
 10
59.3950058812
 20
-242.8522827544
 30
0.0
 11
219.3950023049
 21
-242.8522827544
 31
0.0
  0
LINE
  5
D5
330
1F
100
AcDbEntity
  8
0
  6
Continuous
 62
     7
370
    25
100
AcDbLine
 10
84.3950043911
 20
7.1477172456
 30
0.0
 11
194.395003795
 21
7.1477172456
 31
0.0
  0
LINE
  5
D6
330
1F
100
AcDbEntity
  8
0
  6
Continuous
 62
     1
370
    25
100
AcDbLine
 10
59.5115180606
 20
-144.526035569
 30
0.0
 11
219.2784901255
 21
-144.526035569
 31
0.0
  0
LINE
  5
D7
330
1F
100
AcDbEntity
  8
0
  6
Continuous
 62
     1
370
    25
100
AcDbLine
 10
59.3950058812
 20
-145.1987075129
 30
0.0
 11
219.3950023049
 21
-145.1987075129
 31
0.0
  0
LINE
  5
D8
330
1F
100
AcDbEntity
  8
0
  6
Continuous
 62
     1
370
    25
100
AcDbLine
 10
84.2784884864
 20
-75.1785273173
 30
0.0
 11
194.5115196997
 21
-75.1785273173
 31
0.0
  0
LINE
  5
D9
330
1F
100
AcDbEntity
  8
0
  6
Continuous
 62
     1
370
    25
100
AcDbLine
 10
84.3950043911
 20
-74.5058516481
 30
0.0
 11
194.395003795
 21
-74.5058516481
 31
0.0
  0
LINE
  5
DA
330
1F
100
AcDbEntity
  8
0
  6
Continuous
 62
     7
370
    25
100
AcDbLine
 10
420.9703996675
 20
-35.2229327468
 30
0.0
 11
351.918894407
 21
4.639652741
 31
0.0
  0
LINE
  5
DB
330
1F
100
AcDbEntity
  8
0
  6
Continuous
 62
     7
370
    25
100
AcDbLine
 10
271.925398192
 20
-133.9281611512
 30
0.0
 11
340.9769034524
 21
-173.7907466391
 31
0.0
  0
SPLINE
  5
DC
330
1F
100
AcDbEntity
  8
0
  6
Continuous
 62
     7
370
    25
100
AcDbSpline
210
0.0
220
0.0
230
1.0
 70
     8
 71
     3
 72
    10
 73
     6
 74
     0
 42
0.000000001
 43
0.00000001
 40
0.0
 40
0.0
 40
0.0
 40
0.0
 40
0.1101030764072968
 40
0.5961803964165747
 40
1.0
 40
1.0
 40
1.0
 40
1.0
 10
427.820301733706
 20
-40.77743904587754
 30
0.0
 10
427.6967174740607
 20
-40.63418898269187
 30
0.0
 10
427.0275398696708
 20
-39.8585260108345
 30
0.0
 10
425.7973869915165
 20
-38.69399582541308
 30
0.0
 10
424.6314558484711
 20
-37.76373735016243
 30
0.0
 10
424.1023767613232
 20
-37.34160238290215
 30
0.0
  0
SPLINE
  5
DD
330
1F
100
AcDbEntity
  8
0
  6
Continuous
 62
     7
370
    25
100
AcDbSpline
210
0.0
220
0.0
230
1.0
 70
     8
 71
     3
 72
    10
 73
     6
 74
     0
 42
0.000000001
 43
0.00000001
 40
0.0
 40
0.0
 40
0.0
 40
0.0
 40
0.2493937091768079
 40
0.7285513164213405
 40
1.0
 40
1.0
 40
1.0
 40
1.0
 10
344.358981262406
 20
-175.42349276672
 30
0.0
 10
344.746417827813
 20
-175.587028792738
 30
0.0
 10
345.8782323418552
 20
-176.0647649290305
 30
0.0
 10
347.5047693147319
 20
-176.5731713498956
 30
0.0
 10
348.7709307388668
 20
-176.8436436515742
 30
0.0
 10
349.228824385618
 20
-176.9414570474019
 30
0.0
  0
LINE
  5
DE
330
1F
100
AcDbEntity
  8
0
  6
Continuous
 62
     7
370
    25
100
AcDbLine
 10
352.89400126
 20
-177.5455618709
 30
0.0
 11
410.7833417462
 21
-183.2938041802
 31
0.0
  0
LINE
  5
DF
330
1F
100
AcDbEntity
  8
0
  6
Continuous
 62
     7
370
    25
100
AcDbLine
 10
464.1087343503
 20
-90.9215059149
 30
0.0
 11
430.1815064816
 21
-43.6651698396
 31
0.0
  0
LINE
  5
E0
330
1F
100
AcDbEntity
  8
0
  6
Continuous
 62
     7
370
    25
100
AcDbLine
 10
516.1966072372
 20
-119.0625791157
 30
0.0
 11
461.7440379994
 21
-87.6277800033
 31
0.0
  0
LINE
  5
E1
330
1F
100
AcDbEntity
  8
0
  6
Continuous
 62
     7
370
    25
100
AcDbLine
 10
406.7485067174
 20
-182.8931581377
 30
0.0
 11
461.2010759551
 21
-214.3279572501
 31
0.0
  0
LWPOLYLINE
  5
E2
330
1F
100
AcDbEntity
  8
0
  6
Continuous
 62
     7
370
    25
100
AcDbPolyline
 90
      118
 70
   128
 43
0.0
 10
255.353605069
 20
-97.3005779481
 10
255.4351539525
 20
-93.7471679867
 10
255.6795740637
 20
-90.1098440606
 10
256.0861541746
 20
-86.3990978293
 10
256.6537194417
 20
-82.6256292757
 10
257.380641943
 20
-78.8003121059
 10
258.2648248729
 20
-74.9341789188
 10
259.3037078102
 20
-71.0383824228
 10
260.4943088654
 20
-67.1241437287
 10
261.8331878021
 20
-63.2027599503
 10
263.3164881835
 20
-59.2855296834
 10
264.9399321046
 20
-55.3837469214
 10
266.6988359968
 20
-51.5086691175
 10
268.5881290673
 20
-47.671463954
 10
270.6023664704
 20
-43.883195655
 10
272.7357398432
 20
-40.1547854434
 10
274.982095746
 20
-36.4969887291
 10
277.3349620034
 20
-32.9203464414
 10
279.7875503385
 20
-29.4351682991
 10
282.3327932517
 20
-26.0515084794
 10
284.9633492889
 20
-22.7791230324
 10
287.6716320172
 20
-19.6274470698
 10
290.4498376843
 20
-16.6055605467
 10
293.2899531206
 20
-13.7221897832
 10
296.1837899837
 20
-10.9856329427
 10
299.1230045146
 20
-8.4037912121
 10
302.0991219041
 20
-5.9841060663
 10
305.1035619759
 20
-3.7335566088
 10
308.1276615768
 20
-1.6586223112
 10
311.1627019069
 20
0.2347084289
 10
314.1999318975
 20
1.9409700353
 10
317.2305942237
 20
3.4552530209
 10
320.245951317
 20
4.7731885857
 10
323.237308085
 20
5.8909739004
 10
326.1960405581
 20
6.8053886435
 10
329.1136179507
 20
7.5137955697
 10
331.9816280152
 20
8.0141490627
 10
334.7918007498
 20
8.305014905
 10
337.53603474
 20
8.3855489825
 10
340.2064169148
 20
8.2555147734
 10
342.795250206
 20
7.9152932312
 10
345.2950667191
 20
7.365866054
 10
347.6986593428
 20
6.6088126388
 10
349.999100189
 20
5.6463176852
 10
352.1897563973
 20
4.4811590261
 10
354.2643085747
 20
3.1166939376
 10
356.2167771371
 20
1.556853053
 10
358.0415354801
 20
-0.1938581175
 10
359.7333152477
 20
-2.1304017735
 10
361.2872484788
 20
-4.247183493
 10
362.6988465342
 20
-6.5381100263
 10
363.964042243
 20
-8.9965680064
 10
365.0791899026
 20
-11.6154741399
 10
366.0410705477
 20
-14.3872752072
 10
366.8469077545
 20
-17.3039830456
 10
367.4943887148
 20
-20.3571829163
 10
367.9816378937
 20
-23.5380745666
 10
368.3072539086
 20
-26.8374855419
 10
368.470298992
 20
-30.2459019833
 10
368.470298992
 20
-33.7534990458
 10
368.3072539086
 20
-37.3501633335
 10
367.9816378937
 20
-41.0255225574
 10
367.4943887148
 20
-44.7689801351
 10
366.8469077545
 20
-48.5697456101
 10
366.0410705477
 20
-52.4168532834
 10
365.0791899026
 20
-56.2992181045
 10
363.964042243
 20
-60.2056463202
 10
362.6988465342
 20
-64.1248681723
 10
361.2872484788
 20
-68.0455911292
 10
359.7333152477
 20
-71.9565059682
 10
358.0415354801
 20
-75.846336967
 10
356.2167771371
 20
-79.7038692754
 10
354.2643085747
 20
-83.5179823785
 10
352.1897563973
 20
-87.2776744272
 10
349.999100189
 20
-90.9721109073
 10
347.6986593428
 20
-94.5906383266
 10
345.2950667191
 20
-98.1228207148
 10
342.795250206
 20
-101.558474603
 10
340.2064169148
 20
-104.8876994406
 10
337.53603474
 20
-108.1008912819
 10
334.7918007498
 20
-111.1887823275
 10
331.9816280152
 20
-114.1424728622
 10
329.1136179507
 20
-116.9534533061
 10
326.1960405581
 20
-119.6136095355
 10
323.237308085
 20
-122.1152745925
 10
320.245951317
 20
-124.451236287
 10
317.2305942237
 20
-126.6147579173
 10
314.1999318975
 20
-128.5996031725
 10
311.1627019069
 20
-130.4000526708
 10
308.1276615768
 20
-132.0109049072
 10
305.1035619759
 20
-133.4275216891
 10
302.0991219041
 20
-134.6458249018
 10
299.1230045146
 20
-135.6622917534
 10
296.1837899837
 20
-136.4739948866
 10
293.2899531206
 20
-137.0785909697
 10
290.4498376843
 20
-137.4743476908
 10
287.6716320172
 20
-137.6601091542
 10
284.9633492889
 20
-137.6353498714
 10
282.3327932517
 20
-137.4001397768
 10
279.7875503385
 20
-136.9551548733
 10
277.3349620034
 20
-136.3016749483
 10
274.982095746
 20
-135.4415942177
 10
272.7357398432
 20
-134.3773848227
 10
270.6023664704
 20
-133.1121150781
 10
268.5881290673
 20
-131.649435783
 10
266.6988359968
 20
-129.9935619678
 10
264.9399321046
 20
-128.1492713714
 10
263.3164881835
 20
-126.1218770632
 10
261.8331878021
 20
-123.9172289634
 10
260.4943088654
 20
-121.5416819011
 10
259.3037078102
 20
-119.0020819254
 10
258.2648248729
 20
-116.3057541374
 10
257.380641943
 20
-113.4604768316
 10
256.6537194417
 20
-110.4744465171
 10
256.0861541746
 20
-107.3562748725
 10
255.6795740637
 20
-104.1149560452
 10
255.4351539525
 20
-100.7598335727
 10
255.353605069
 20
-97.3005779481
  0
LWPOLYLINE
  5
E3
330
1F
100
AcDbEntity
  8
0
  6
Continuous
 62
     7
370
    25
100
AcDbPolyline
 90
      106
 70
   128
 43
0.0
 10
265.6773649762
 20
-91.3407982111
 10
265.7601361184
 20
-88.0993678853
 10
266.0081545168
 20
-84.7739747679
 10
266.4205350877
 20
-81.3765211607
 10
266.995797423
 20
-77.9191716695
 10
267.7318894981
 20
-74.4142992132
 10
268.6261665981
 20
-70.8744542232
 10
269.6754334652
 20
-67.3123057114
 10
270.8759337615
 20
-63.7406062881
 10
272.2233685084
 20
-60.1721419729
 10
273.7129118918
 20
-56.6196880896
 10
275.3392376036
 20
-53.0959590779
 10
277.0965188421
 20
-49.6135689495
 10
278.9784678244
 20
-46.1849841431
 10
280.9783463229
 20
-42.8224809394
 10
283.0889946419
 20
-39.538095273
 10
285.3028605929
 20
-36.343578629
 10
287.6120153
 20
-33.2503737088
 10
290.0081927126
 20
-30.2695520766
 10
292.482817264
 20
-27.4117799407
 10
295.0270302136
 20
-24.6872907795
 10
297.6317225737
 20
-22.105838956
 10
300.2875706712
 20
-19.6766639802
 10
302.9850684162
 20
-17.4084597125
 10
305.7145582533
 20
-15.3093473705
 10
308.4662693577
 20
-13.386841312
 10
311.230351797
 20
-11.6478262714
 10
313.9969106929
 20
-10.0985193879
 10
316.7560424415
 20
-8.7444797138
 10
319.4978704392
 20
-7.5905389216
 10
322.2125785863
 20
-6.6408367155
 10
324.8904497292
 20
-5.8987743047
 10
327.5218987527
 20
-5.3670074667
 10
330.097503202
 20
-5.0474349539
 10
332.608046088
 20
-4.9412011584
 10
335.0445369611
 20
-5.0486930727
 10
337.3982566922
 20
-5.3695205218
 10
339.6607811798
 20
-5.9025328951
 10
341.8240050581
 20
-6.6458297959
 10
343.8801891121
 20
-7.596745836
 10
345.8219708141
 20
-8.7518749717
 10
347.6424012026
 20
-10.1070857166
 10
349.3349633211
 20
-11.6575226641
 10
350.8935932917
 20
-13.3976399497
 10
352.3127198279
 20
-15.3212088596
 10
353.5872563319
 20
-17.4213391228
 10
354.7126430416
 20
-19.690515417
 10
355.6848522987
 20
-22.1206140998
 10
356.5003990858
 20
-24.7029381905
 10
357.156372636
 20
-27.4282394268
 10
357.6504127259
 20
-30.286766932
 10
357.9807597245
 20
-33.2682850907
 10
358.1462335201
 20
-36.3621178437
 10
358.1462335201
 20
-39.5571954567
 10
357.9807597245
 20
-42.8420801876
 10
357.6504127259
 20
-46.2050088723
 10
357.156372636
 20
-49.6339429238
 10
356.5003990858
 20
-53.1166151001
 10
355.6848522987
 20
-56.6405494684
 10
354.7126430416
 20
-60.1931370666
 10
353.5872563319
 20
-63.7616571986
 10
352.3127198279
 20
-67.3333359865
 10
350.8935932917
 20
-70.8953935189
 10
349.3349633211
 20
-74.435066664
 10
347.6424012026
 20
-77.9396942373
 10
345.8219708141
 20
-81.3967291701
 10
343.8801891121
 20
-84.7937917382
 10
341.8240050581
 20
-88.1187273546
 10
339.6607811798
 20
-91.3596293823
 10
337.3982566922
 20
-94.5048969256
 10
335.0445369611
 20
-97.5432713314
 10
332.608046088
 20
-100.4638757291
 10
330.097503202
 20
-103.2562530512
 10
327.5218987527
 20
-105.9104101378
 10
324.8904497292
 20
-108.4168496723
 10
322.2125785863
 20
-110.7665914722
 10
319.4978704392
 20
-112.9512245766
 10
316.7560424415
 20
-114.9629310078
 10
313.9969106929
 20
-116.7945170428
 10
311.230351797
 20
-118.4394110699
 10
308.4662693577
 20
-119.8917376841
 10
305.7145582533
 20
-121.1462896412
 10
302.9850684162
 20
-122.1985791857
 10
300.2875706712
 20
-123.044839521
 10
297.6317225737
 20
-123.6820414889
 10
295.0270302136
 20
-124.107903452
 10
292.482817264
 20
-124.3209000362
 10
290.0081927126
 20
-124.3202685914
 10
287.6120153
 20
-124.1060145118
 10
285.3028605929
 20
-123.6789028671
 10
283.0889946419
 20
-123.0404614424
 10
280.9783463229
 20
-122.1929784542
 10
278.9784678244
 20
-121.1394858162
 10
277.0965188421
 20
-119.8837530542
 10
275.3392376036
 20
-118.4302766572
 10
273.7129118918
 20
-116.7842633442
 10
272.2233685084
 20
-114.9515996445
 10
270.8759337615
 20
-112.9388503738
 10
269.6754334652
 20
-110.7532190892
 10
268.6261665981
 20
-108.4025283156
 10
267.7318894981
 20
-105.8951936877
 10
266.995797423
 20
-103.2401950512
 10
266.4205350877
 20
-100.4470293148
 10
266.0081545168
 20
-97.5257001802
 10
265.7601361184
 20
-94.4866630103
 10
265.6773649762
 20
-91.3407982111
  0
ARC
  5
E4
330
1F
100
AcDbEntity
  8
0
  6
Continuous
 62
     7
370
    25
100
AcDbCircle
 10
407.5645824284
 20
-58.4373625509
 30
0.0
 40
26.80719468680239
100
AcDbArc
 50
52.2884546096
 51
59.9945212034
  0
ARC
  5
E5
330
1F
100
AcDbEntity
  8
0
  6
Continuous
 62
     7
370
    25
100
AcDbCircle
 10
354.3885845414
 20
-150.5469971651
 30
0.0
 40
26.83551898588867
100
AcDbArc
 50
240.0149843799
 51
247.659940495
  0
ARC
  5
E6
330
1F
100
AcDbEntity
  8
0
  6
Continuous
 62
     7
370
    25
100
AcDbCircle
 10
403.5880662928
 20
-62.8578350606
 30
0.0
 40
32.79292455721082
100
AcDbArc
 50
26.0855729505
 51
42.0814252903
  0
ARC
  5
E7
330
1F
100
AcDbEntity
  8
0
  6
Continuous
 62
     7
370
    25
100
AcDbCircle
 10
356.2252095168
 20
-144.7501655988
 30
0.0
 40
32.95947503331931
100
AcDbArc
 50
257.990779236
 51
273.6864814393
  0
LWPOLYLINE
  5
E8
330
1F
100
AcDbEntity
  8
0
  6
Continuous
 62
     7
370
    25
100
AcDbPolyline
 90
        3
 70
   128
 43
0.0
 10
464.1087343503
 20
-90.9215059149
 10
464.9492768527
 20
-92.1797584717
 10
465.9595183723
 20
-93.9726308435
  0
LWPOLYLINE
  5
E9
330
1F
100
AcDbEntity
  8
0
  6
Continuous
 62
     7
370
    25
100
AcDbPolyline
 90
        3
 70
   128
 43
0.0
 10
413.8796151911
 20
-183.3909122857
 10
412.8481619529
 20
-183.4038004051
 10
410.7833417462
 20
-183.2938041802
  0
LWPOLYLINE
  5
EA
330
1F
100
AcDbEntity
  8
0
  6
Continuous
 62
     7
370
    25
100
AcDbPolyline
 90
       50
 70
   128
 43
0.0
 10
516.1966072372
 20
-119.0625791157
 10
517.2893275051
 20
-119.7456381624
 10
518.9359337536
 20
-120.9959921408
 10
520.4557148666
 20
-122.4380225789
 10
521.8422987674
 20
-124.0656831987
 10
523.0898639225
 20
-125.8721490601
 10
524.1931841229
 20
-127.8498393785
 10
525.1476284833
 20
-129.990461632
 10
525.9491930534
 20
-132.2850358992
 10
526.5945166218
 20
-134.7239397276
 10
527.0808938878
 20
-137.2969415957
 10
527.4062833634
 20
-139.9932499632
 10
527.5693179102
 20
-142.8015573793
 10
527.5693179102
 20
-145.7100823086
 10
527.4062833634
 20
-148.7066254056
 10
527.0808938878
 20
-151.7786204649
 10
526.5945166218
 20
-154.9131815712
 10
525.9491930534
 20
-158.0971601324
 10
525.1476284833
 20
-161.317201153
 10
524.1931841229
 20
-164.5598014089
 10
523.0898639225
 20
-167.8113581156
 10
521.8422987674
 20
-171.0582320451
 10
520.4557148666
 20
-174.2868083604
 10
518.9359337536
 20
-177.4835407216
 10
517.2893275051
 20
-180.6350258079
 10
515.5228003017
 20
-183.7280428591
 10
513.6437673545
 20
-186.7496145114
 10
511.6601048559
 20
-189.6870752339
 10
509.5801354914
 20
-192.5280979437
 10
507.4125836586
 20
-195.2607715686
 10
505.1665385887
 20
-197.8736284207
 10
502.8514227367
 20
-200.3557141556
 10
500.4769456828
 20
-202.6966174266
 10
498.0530672541
 20
-204.8865155086
 10
495.5899540606
 20
-206.9162267661
 10
493.0979370194
 20
-208.777241258
 10
490.5874688782
 20
-210.4617452582
 10
488.0690790228
 20
-211.9626777638
 10
485.5533307541
 20
-213.2737460323
 10
483.0507753544
 20
-214.3894460155
 10
480.5719104349
 20
-215.3050985721
 10
478.1271330962
 20
-216.0168643401
 10
475.7266962177
 20
-216.5217628868
 10
473.3806696036
 20
-216.8176677621
 10
471.0988932259
 20
-216.9033426162
 10
468.8909357362
 20
-216.7784286481
 10
466.7660602217
 20
-216.443446123
 10
464.7331794237
 20
-215.8998019732
 10
462.8008175423
 20
-215.1497814291
 10
461.2010759551
 20
-214.3279572501
  0
LWPOLYLINE
  5
EB
330
1F
100
AcDbEntity
  8
0
  6
Continuous
 62
     1
370
    25
100
AcDbPolyline
 90
       57
 70
   128
 43
0.0
 10
423.9621805381
 20
-37.2301830305
 10
425.2682823975
 20
-38.3057324349
 10
427.0930407405
 20
-40.0564436054
 10
428.7848205081
 20
-41.9929872613
 10
430.3387537392
 20
-44.1097689809
 10
431.7503517946
 20
-46.4006955142
 10
433.0155475034
 20
-48.8591534943
 10
434.1306951631
 20
-51.4780596277
 10
435.0925758081
 20
-54.249860695
 10
435.8984130149
 20
-57.1665685335
 10
436.5458939752
 20
-60.2197684041
 10
437.0331431541
 20
-63.4006600545
 10
437.358759169
 20
-66.7000710298
 10
437.5218042525
 20
-70.1084874711
 10
437.5218042525
 20
-73.6160845337
 10
437.358759169
 20
-77.2127488214
 10
437.0331431541
 20
-80.8881080452
 10
436.5458939752
 20
-84.631565623
 10
435.8984130149
 20
-88.432331098
 10
435.0925758081
 20
-92.2794387713
 10
434.1306951631
 20
-96.1618035924
 10
433.0155475034
 20
-100.068231808
 10
431.7503517946
 20
-103.9874536602
 10
430.3387537392
 20
-107.908176617
 10
428.7848205081
 20
-111.8190914561
 10
427.0930407405
 20
-115.7089224548
 10
425.2682823975
 20
-119.5664547632
 10
423.3158138352
 20
-123.3805678663
 10
421.2412616578
 20
-127.140259915
 10
419.0506054494
 20
-130.8346963951
 10
416.7501646032
 20
-134.4532238145
 10
414.3465719795
 20
-137.9854062027
 10
411.8467554665
 20
-141.4210600909
 10
409.2579221752
 20
-144.7502849284
 10
406.5875400004
 20
-147.9634767697
 10
403.8433060103
 20
-151.0513678153
 10
401.0331332757
 20
-154.0050583501
 10
398.1651232111
 20
-156.8160387939
 10
395.2475458185
 20
-159.4761950233
 10
392.2888133455
 20
-161.9778600803
 10
389.2974565775
 20
-164.3138217749
 10
386.2820994842
 20
-166.4773434051
 10
383.2514371579
 20
-168.4621886604
 10
380.2142071673
 20
-170.2626381586
 10
377.1791668372
 20
-171.873490395
 10
374.1550672363
 20
-173.2901071769
 10
371.1506271646
 20
-174.5084103896
 10
368.174509775
 20
-175.5248772412
 10
365.2352952441
 20
-176.3365803744
 10
362.341458381
 20
-176.9411764576
 10
359.5013429447
 20
-177.3369331787
 10
356.7231372776
 20
-177.5226946421
 10
354.0148545493
 20
-177.4979353593
 10
351.3842985122
 20
-177.2627252646
 10
348.8390555989
 20
-176.8177403611
 10
346.3864672638
 20
-176.1642604362
 10
344.1883247215
 20
-175.3683544779
  0
LWPOLYLINE
  5
EC
330
1F
100
AcDbEntity
  8
0
  6
Continuous
 62
     1
370
    25
100
AcDbPolyline
 90
       47
 70
   128
 43
0.0
 10
433.0406485858
 20
-48.4383587425
 10
433.4154025577
 20
-49.2147900166
 10
434.5289222954
 20
-51.8298815154
 10
435.4894015578
 20
-54.5976474351
 10
436.2940691895
 20
-57.5101056972
 10
436.940607114
 20
-60.5588575319
 10
437.4271450649
 20
-63.735117136
 10
437.7522869277
 20
-67.0297227018
 10
437.9150949352
 20
-70.4331748192
 10
437.9150949352
 20
-73.935663092
 10
437.7522869277
 20
-77.5270893336
 10
437.4271450649
 20
-81.1970957036
 10
436.940607114
 20
-84.9351000687
 10
436.2940691895
 20
-88.7303287019
 10
435.4894015578
 20
-92.5718364362
 10
434.5289222954
 20
-96.4485481077
 10
433.4154025577
 20
-100.3492821299
 10
432.1520507736
 20
-104.2627976416
 10
430.7425073771
 20
-108.177808194
 10
429.190839539
 20
-112.0830288995
 10
427.5015200937
 20
-115.9671931596
 10
425.6794222705
 20
-119.8191074178
 10
423.7297959863
 20
-123.6276648458
 10
421.6582625769
 20
-127.3818848868
 10
419.4707989924
 20
-131.070940631
 10
417.1737088206
 20
-134.684196836
 10
414.7736170195
 20
-138.2112342608
 10
412.2774409405
 20
-141.6418846447
 10
409.6923797922
 20
-144.9662611248
 10
407.0258856641
 20
-148.1747688795
 10
404.2856477221
 20
-151.2581629226
 10
401.4795685002
 20
-154.2075557052
 10
398.615736242
 20
-157.014439167
 10
395.7024077785
 20
-159.6707189552
 10
392.7479848207
 20
-162.1687463622
 10
389.7609843247
 20
-164.5013050138
 10
386.7500190647
 20
-166.6616768386
 10
383.7237704684
 20
-168.6436273307
 10
380.6909641682
 20
-170.4414500824
 10
377.6603442358
 20
-172.0499634072
 10
374.6406489805
 20
-173.464518227
 10
371.640584937
 20
-174.6810435078
 10
368.6688014289
 20
-175.6960305251
 10
365.7338687544
 20
-176.5065515402
 10
362.8442465761
 20
-177.1102658819
 10
360.0082681164
 20
-177.5054412371
 10
358.3444000993
 20
-177.6414414291
  0
LWPOLYLINE
  5
ED
330
1F
100
AcDbEntity
  8
0
  6
Continuous
 62
     1
370
    25
100
AcDbPolyline
 90
       40
 70
   128
 43
0.0
 10
465.9595183723
 20
-93.9726308435
 10
466.0549335689
 20
-94.1616391598
 10
467.011398344
 20
-96.3067970036
 10
467.8146619589
 20
-98.606232309
 10
468.4613526657
 20
-101.0503020901
 10
468.9487598953
 20
-103.6287550529
 10
469.2748368913
 20
-106.3307764624
 10
469.4382191496
 20
-109.1450316814
 10
469.4382191496
 20
-112.0597182614
 10
469.2748368913
 20
-115.0626106205
 10
468.9487598953
 20
-118.1411125161
 10
468.4613526657
 20
-121.2823138877
 10
467.8146619589
 20
-124.473036866
 10
467.011398344
 20
-127.6999006002
 10
466.0549335689
 20
-130.9493691674
 10
464.9492768527
 20
-134.2078139277
 10
463.6990643486
 20
-137.4615682771
 10
462.3095459735
 20
-140.6969839202
 10
460.7865432608
 20
-143.9004886617
 10
459.1364493605
 20
-147.0586502848
 10
457.3661816243
 20
-150.1582160915
 10
455.4831658
 20
-153.1861935095
 10
453.4953017874
 20
-156.1298759451
 10
451.4109267601
 20
-158.9769188262
 10
449.2387822379
 20
-161.7153799032
 10
446.9879785255
 20
-164.3337732391
 10
444.667957834
 20
-166.8211178751
 10
442.2884508171
 20
-169.1669781317
 10
439.8594377168
 20
-171.3615164567
 10
437.3911068752
 20
-173.3955295434
 10
434.893810612
 20
-175.2604829278
 10
432.3780240654
 20
-176.9485560419
 10
429.8542990939
 20
-178.4526688254
 10
427.3332211422
 20
-179.7665127112
 10
424.8253644592
 20
-180.8845764761
 10
422.3412483058
 20
-181.8021715226
 10
419.891290856
 20
-182.5154463234
 10
417.4857693554
 20
-183.0214094212
 10
415.1347720473
 20
-183.3179450143
 10
413.8796151911
 20
-183.3909122857
  0
LWPOLYLINE
  5
EE
330
1F
100
AcDbEntity
  8
0
  6
Continuous
 62
     1
370
    25
100
AcDbPolyline
 90
       44
 70
   128
 43
0.0
 10
463.1194845955
 20
-89.5436068947
 10
464.1045064946
 20
-90.7343651967
 10
465.3520716497
 20
-92.540831058
 10
466.4553918501
 20
-94.5185213764
 10
467.4098362106
 20
-96.65914363
 10
468.2114007806
 20
-98.9537178971
 10
468.856724349
 20
-101.3926217256
 10
469.343101615
 20
-103.9656235937
 10
469.6684910906
 20
-106.6619319612
 10
469.8315256374
 20
-109.4702393772
 10
469.8315256374
 20
-112.3787643066
 10
469.6684910906
 20
-115.3753074035
 10
469.343101615
 20
-118.4473024629
 10
468.856724349
 20
-121.5818635692
 10
468.2114007806
 20
-124.7658421303
 10
467.4098362106
 20
-127.985883151
 10
466.4553918501
 20
-131.2284834069
 10
465.3520716497
 20
-134.4800401135
 10
464.1045064946
 20
-137.7269140431
 10
462.7179225938
 20
-140.9554903584
 10
461.1981414808
 20
-144.1522227196
 10
459.5515352323
 20
-147.3037078058
 10
457.7850080289
 20
-150.3967248571
 10
455.9059750817
 20
-153.4182965094
 10
453.9223125831
 20
-156.3557572319
 10
451.8423432186
 20
-159.1967799417
 10
449.6747913858
 20
-161.9294535666
 10
447.4287463159
 20
-164.5423104186
 10
445.1136304639
 20
-167.0243961536
 10
442.73915341
 20
-169.3652994246
 10
440.3152749813
 20
-171.5551975065
 10
437.8521617878
 20
-173.584908764
 10
435.3601447466
 20
-175.4459232559
 10
432.8496766054
 20
-177.1304272562
 10
430.33128675
 20
-178.6313597617
 10
427.8155384813
 20
-179.9424280303
 10
425.3129830816
 20
-181.0581280135
 10
422.8341181621
 20
-181.9737805701
 10
420.3893408234
 20
-182.6855463381
 10
417.9889039449
 20
-183.1904448847
 10
415.6428773308
 20
-183.4863497601
 10
413.3611009531
 20
-183.5720246142
 10
411.1531434634
 20
-183.4471106461
 10
409.0954052444
 20
-183.1261984214
  0
ENDSEC
  0
SECTION
  2
OBJECTS
  0
DICTIONARY
  5
C
330
0
100
AcDbDictionary
281
     1
  3
ACAD_GROUP
350
D
  3
ACAD_LAYOUT
350
1A
  3
ACAD_MLINESTYLE
350
17
  3
ACAD_PLOTSETTINGS
350
19
  3
ACAD_PLOTSTYLENAME
350
E
  3
ACAD_SCALELIST
350
47
  0
DICTIONARY
  5
D
102
{ACAD_REACTORS
330
C
102
}
330
C
100
AcDbDictionary
281
     1
  0
DICTIONARY
  5
1A
102
{ACAD_REACTORS
330
C
102
}
330
C
100
AcDbDictionary
281
     1
  3
Layout1
350
1E
  3
Layout2
350
26
  3
Model
350
22
  0
DICTIONARY
  5
17
102
{ACAD_REACTORS
330
C
102
}
330
C
100
AcDbDictionary
281
     1
  3
Standard
350
18
  0
DICTIONARY
  5
19
102
{ACAD_REACTORS
330
C
102
}
330
C
100
AcDbDictionary
281
     1
  0
ACDBDICTIONARYWDFLT
  5
E
102
{ACAD_REACTORS
330
C
102
}
330
C
100
AcDbDictionary
281
     1
  3
Normal
350
F
100
AcDbDictionaryWithDefault
340
F
  0
DICTIONARY
  5
47
102
{ACAD_REACTORS
330
C
102
}
330
C
100
AcDbDictionary
281
     1
  3
A0
350
48
  3
A1
350
49
  3
A2
350
4A
  3
A3
350
4B
  3
A4
350
4C
  3
A5
350
4D
  3
A6
350
4E
  3
A7
350
4F
  3
A8
350
50
  3
A9
350
51
  3
B0
350
52
  3
B1
350
53
  3
B2
350
54
  3
B3
350
55
  3
B4
350
56
  3
B5
350
57
  3
B6
350
58
  3
B7
350
59
  3
B8
350
5A
  3
B9
350
5B
  3
C0
350
5C
  3
C1
350
5D
  3
C2
350
5E
  3
C3
350
5F
  3
C4
350
60
  3
C5
350
61
  3
C6
350
62
  3
C7
350
63
  3
C8
350
64
  3
C9
350
65
  3
D0
350
66
  3
D1
350
67
  3
D2
350
68
  0
LAYOUT
  5
1E
102
{ACAD_REACTORS
330
1A
102
}
330
1A
100
AcDbPlotSettings
  1

  2
none_device
  4

  6

 40
0.0
 41
0.0
 42
0.0
 43
0.0
 44
0.0
 45
0.0
 46
0.0
 47
0.0
 48
0.0
 49
0.0
140
0.0
141
0.0
142
1.0
143
1.0
 70
   688
 72
     1
 73
     0
 74
     5
  7

 75
    16
147
1.0
148
0.0
149
0.0
100
AcDbLayout
  1
Layout1
 70
     1
 71
     1
 10
0.0
 20
0.0
 11
420.0
 21
297.0
 12
0.0
 22
0.0
 32
0.0
 14
1.0000000000E+20
 24
1.0000000000E+20
 34
1.0000000000E+20
 15
-1.0000000000E+20
 25
-1.0000000000E+20
 35
-1.0000000000E+20
146
0.0
 13
0.0
 23
0.0
 33
0.0
 16
1.0
 26
0.0
 36
0.0
 17
0.0
 27
1.0
 37
0.0
 76
     0
330
1B
  0
LAYOUT
  5
26
102
{ACAD_REACTORS
330
1A
102
}
330
1A
100
AcDbPlotSettings
  1

  2
none_device
  4

  6

 40
0.0
 41
0.0
 42
0.0
 43
0.0
 44
0.0
 45
0.0
 46
0.0
 47
0.0
 48
0.0
 49
0.0
140
0.0
141
0.0
142
1.0
143
1.0
 70
   688
 72
     1
 73
     0
 74
     5
  7

 75
    16
147
1.0
148
0.0
149
0.0
100
AcDbLayout
  1
Layout2
 70
     1
 71
     2
 10
0.0
 20
0.0
 11
0.0
 21
0.0
 12
0.0
 22
0.0
 32
0.0
 14
0.0
 24
0.0
 34
0.0
 15
0.0
 25
0.0
 35
0.0
146
0.0
 13
0.0
 23
0.0
 33
0.0
 16
1.0
 26
0.0
 36
0.0
 17
0.0
 27
1.0
 37
0.0
 76
     0
330
23
  0
LAYOUT
  5
22
102
{ACAD_REACTORS
330
1A
102
}
330
1A
100
AcDbPlotSettings
  1

  2
none_device
  4
Letter_(8.50_x_11.00_Inches)
  6

 40
6.35
 41
6.35
 42
6.35000508
 43
6.35000508
 44
215.9
 45
279.4
 46
0.0
 47
0.0
 48
0.0
 49
0.0
140
0.0
141
0.0
142
1.0
143
1.0
 70
  1712
 72
     1
 73
     0
 74
     0
  7

 75
     0
147
1.0
148
0.0
149
0.0
100
AcDbLayout
  1
Model
 70
     1
 71
     0
 10
0.0
 20
0.0
 11
279.4
 21
215.9
 12
0.0
 22
0.0
 32
0.0
 14
0.0
 24
0.0
 34
0.0
 15
279.4
 25
215.9
 35
0.0
146
0.0
 13
0.0
 23
0.0
 33
0.0
 16
1.0
 26
0.0
 36
0.0
 17
0.0
 27
1.0
 37
0.0
 76
     0
330
1F
331
29
  0
MLINESTYLE
  5
18
102
{ACAD_REACTORS
330
17
102
}
330
17
100
AcDbMlineStyle
  2
Standard
 70
     0
  3

 62
   256
 51
90.0
 52
90.0
 71
     2
 49
0.5
 62
   256
  6
BYLAYER
 49
-0.5
 62
   256
  6
BYLAYER
  0
ACDBPLACEHOLDER
  5
F
102
{ACAD_REACTORS
330
E
102
}
330
E
  0
SCALE
  5
48
102
{ACAD_REACTORS
330
47
102
}
330
47
100
AcDbScale
 70
     0
300
1:1
140
1.0
141
1.0
290
     1
  0
SCALE
  5
49
102
{ACAD_REACTORS
330
47
102
}
330
47
100
AcDbScale
 70
     0
300
1:2
140
1.0
141
2.0
290
     0
  0
SCALE
  5
4A
102
{ACAD_REACTORS
330
47
102
}
330
47
100
AcDbScale
 70
     0
300
1:4
140
1.0
141
4.0
290
     0
  0
SCALE
  5
4B
102
{ACAD_REACTORS
330
47
102
}
330
47
100
AcDbScale
 70
     0
300
1:5
140
1.0
141
5.0
290
     0
  0
SCALE
  5
4C
102
{ACAD_REACTORS
330
47
102
}
330
47
100
AcDbScale
 70
     0
300
1:8
140
1.0
141
8.0
290
     0
  0
SCALE
  5
4D
102
{ACAD_REACTORS
330
47
102
}
330
47
100
AcDbScale
 70
     0
300
1:10
140
1.0
141
10.0
290
     0
  0
SCALE
  5
4E
102
{ACAD_REACTORS
330
47
102
}
330
47
100
AcDbScale
 70
     0
300
1:16
140
1.0
141
16.0
290
     0
  0
SCALE
  5
4F
102
{ACAD_REACTORS
330
47
102
}
330
47
100
AcDbScale
 70
     0
300
1:20
140
1.0
141
20.0
290
     0
  0
SCALE
  5
50
102
{ACAD_REACTORS
330
47
102
}
330
47
100
AcDbScale
 70
     0
300
1:30
140
1.0
141
30.0
290
     0
  0
SCALE
  5
51
102
{ACAD_REACTORS
330
47
102
}
330
47
100
AcDbScale
 70
     0
300
1:40
140
1.0
141
40.0
290
     0
  0
SCALE
  5
52
102
{ACAD_REACTORS
330
47
102
}
330
47
100
AcDbScale
 70
     0
300
1:50
140
1.0
141
50.0
290
     0
  0
SCALE
  5
53
102
{ACAD_REACTORS
330
47
102
}
330
47
100
AcDbScale
 70
     0
300
1:100
140
1.0
141
100.0
290
     0
  0
SCALE
  5
54
102
{ACAD_REACTORS
330
47
102
}
330
47
100
AcDbScale
 70
     0
300
2:1
140
2.0
141
1.0
290
     0
  0
SCALE
  5
55
102
{ACAD_REACTORS
330
47
102
}
330
47
100
AcDbScale
 70
     0
300
4:1
140
4.0
141
1.0
290
     0
  0
SCALE
  5
56
102
{ACAD_REACTORS
330
47
102
}
330
47
100
AcDbScale
 70
     0
300
8:1
140
8.0
141
1.0
290
     0
  0
SCALE
  5
57
102
{ACAD_REACTORS
330
47
102
}
330
47
100
AcDbScale
 70
     0
300
10:1
140
10.0
141
1.0
290
     0
  0
SCALE
  5
58
102
{ACAD_REACTORS
330
47
102
}
330
47
100
AcDbScale
 70
     0
300
100:1
140
100.0
141
1.0
290
     0
  0
SCALE
  5
59
102
{ACAD_REACTORS
330
47
102
}
330
47
100
AcDbScale
 70
     0
300
1/128" = 1'-0"
140
0.0078125
141
12.0
290
     0
  0
SCALE
  5
5A
102
{ACAD_REACTORS
330
47
102
}
330
47
100
AcDbScale
 70
     0
300
1/64" = 1'-0"
140
0.015625
141
12.0
290
     0
  0
SCALE
  5
5B
102
{ACAD_REACTORS
330
47
102
}
330
47
100
AcDbScale
 70
     0
300
1/32" = 1'-0"
140
0.03125
141
12.0
290
     0
  0
SCALE
  5
5C
102
{ACAD_REACTORS
330
47
102
}
330
47
100
AcDbScale
 70
     0
300
1/16" = 1'-0"
140
0.0625
141
12.0
290
     0
  0
SCALE
  5
5D
102
{ACAD_REACTORS
330
47
102
}
330
47
100
AcDbScale
 70
     0
300
3/32" = 1'-0"
140
0.09375
141
12.0
290
     0
  0
SCALE
  5
5E
102
{ACAD_REACTORS
330
47
102
}
330
47
100
AcDbScale
 70
     0
300
1/8" = 1'-0"
140
0.125
141
12.0
290
     0
  0
SCALE
  5
5F
102
{ACAD_REACTORS
330
47
102
}
330
47
100
AcDbScale
 70
     0
300
3/16" = 1'-0"
140
0.1875
141
12.0
290
     0
  0
SCALE
  5
60
102
{ACAD_REACTORS
330
47
102
}
330
47
100
AcDbScale
 70
     0
300
1/4" = 1'-0"
140
0.25
141
12.0
290
     0
  0
SCALE
  5
61
102
{ACAD_REACTORS
330
47
102
}
330
47
100
AcDbScale
 70
     0
300
3/8" = 1'-0"
140
0.375
141
12.0
290
     0
  0
SCALE
  5
62
102
{ACAD_REACTORS
330
47
102
}
330
47
100
AcDbScale
 70
     0
300
1/2" = 1'-0"
140
0.5
141
12.0
290
     0
  0
SCALE
  5
63
102
{ACAD_REACTORS
330
47
102
}
330
47
100
AcDbScale
 70
     0
300
3/4" = 1'-0"
140
0.75
141
12.0
290
     0
  0
SCALE
  5
64
102
{ACAD_REACTORS
330
47
102
}
330
47
100
AcDbScale
 70
     0
300
1" = 1'-0"
140
1.0
141
12.0
290
     0
  0
SCALE
  5
65
102
{ACAD_REACTORS
330
47
102
}
330
47
100
AcDbScale
 70
     0
300
1-1/2" = 1'-0"
140
1.5
141
12.0
290
     0
  0
SCALE
  5
66
102
{ACAD_REACTORS
330
47
102
}
330
47
100
AcDbScale
 70
     0
300
3" = 1'-0"
140
3.0
141
12.0
290
     0
  0
SCALE
  5
67
102
{ACAD_REACTORS
330
47
102
}
330
47
100
AcDbScale
 70
     0
300
6" = 1'-0"
140
6.0
141
12.0
290
     0
  0
SCALE
  5
68
102
{ACAD_REACTORS
330
47
102
}
330
47
100
AcDbScale
 70
     0
300
1'-0" = 1'-0"
140
12.0
141
12.0
290
     0
  0
ENDSEC
  0
EOF
